0
SECTION
2
HEADER
9
$INSUNITS
70
4
0
ENDSEC
0
SECTION
2
TABLES
0
TABLE
2
LTYPE
0
LTYPE
72
65
70
64
2
CONTINUOUS
3
______
73
0
40
0
0
ENDTAB
0
TABLE
2
LAYER
0
ENDTAB
0
ENDSEC
0
SECTION
2
ENTITIES
0
LINE
8
front_outsideCutPath
10
0
20
80
11
0
21
71.975
0
LINE
8
front_outsideCutPath
10
0
20
71.975
11
3.5
21
71.975
0
LINE
8
front_outsideCutPath
10
3.5
20
71.975
11
3.5
21
59.785
0
LINE
8
front_outsideCutPath
10
3.5
20
59.785
11
0
21
59.785
0
LINE
8
front_outsideCutPath
10
0
20
59.785
11
0
21
47.595
0
LINE
8
front_outsideCutPath
10
0
20
47.595
11
3.5
21
47.595
0
LINE
8
front_outsideCutPath
10
3.5
20
47.595
11
3.5
21
35.405
0
LINE
8
front_outsideCutPath
10
3.5
20
35.405
11
0
21
35.405
0
LINE
8
front_outsideCutPath
10
0
20
35.405
11
0
21
23.215
0
LINE
8
front_outsideCutPath
10
0
20
23.215
11
3.5
21
23.215
0
LINE
8
front_outsideCutPath
10
3.5
20
23.215
11
3.5
21
11.025
0
LINE
8
front_outsideCutPath
10
3.5
20
11.025
11
0
21
11.025
0
LINE
8
front_outsideCutPath
10
0
20
11.025
11
0
21
3
0
LINE
8
front_outsideCutPath
10
0
20
3
11
15.525
21
3
0
LINE
8
front_outsideCutPath
10
15.525
20
3
11
15.525
21
6.5
0
LINE
8
front_outsideCutPath
10
15.525
20
6.5
11
27.715
21
6.5
0
LINE
8
front_outsideCutPath
10
27.715
20
6.5
11
27.715
21
3
0
LINE
8
front_outsideCutPath
10
27.715
20
3
11
39.905
21
3
0
LINE
8
front_outsideCutPath
10
39.905
20
3
11
39.905
21
6.5
0
LINE
8
front_outsideCutPath
10
39.905
20
6.5
11
52.095
21
6.5
0
LINE
8
front_outsideCutPath
10
52.095
20
6.5
11
52.095
21
3
0
LINE
8
front_outsideCutPath
10
52.095
20
3
11
64.285
21
3
0
LINE
8
front_outsideCutPath
10
64.285
20
3
11
64.285
21
6.5
0
LINE
8
front_outsideCutPath
10
64.285
20
6.5
11
76.475
21
6.5
0
LINE
8
front_outsideCutPath
10
76.475
20
6.5
11
76.475
21
3
0
LINE
8
front_outsideCutPath
10
76.475
20
3
11
88.665
21
3
0
LINE
8
front_outsideCutPath
10
88.665
20
3
11
92
21
3
0
LINE
8
front_outsideCutPath
10
92
20
3
11
92
21
11.025
0
LINE
8
front_outsideCutPath
10
92
20
11.025
11
88.5
21
11.025
0
LINE
8
front_outsideCutPath
10
88.5
20
11.025
11
88.5
21
23.215
0
LINE
8
front_outsideCutPath
10
88.5
20
23.215
11
92
21
23.215
0
LINE
8
front_outsideCutPath
10
92
20
23.215
11
92
21
35.405
0
LINE
8
front_outsideCutPath
10
92
20
35.405
11
88.5
21
35.405
0
LINE
8
front_outsideCutPath
10
88.5
20
35.405
11
88.5
21
47.595
0
LINE
8
front_outsideCutPath
10
88.5
20
47.595
11
92
21
47.595
0
LINE
8
front_outsideCutPath
10
92
20
47.595
11
92
21
59.785
0
LINE
8
front_outsideCutPath
10
92
20
59.785
11
88.5
21
59.785
0
LINE
8
front_outsideCutPath
10
88.5
20
59.785
11
88.5
21
71.975
0
LINE
8
front_outsideCutPath
10
88.5
20
71.975
11
92
21
71.975
0
LINE
8
front_outsideCutPath
10
92
20
71.975
11
92
21
80
0
LINE
8
front_outsideCutPath
10
92
20
80
11
76.475
21
80
0
LINE
8
front_outsideCutPath
10
76.475
20
80
11
76.475
21
76.5
0
LINE
8
front_outsideCutPath
10
76.475
20
76.5
11
64.285
21
76.5
0
LINE
8
front_outsideCutPath
10
64.285
20
76.5
11
64.285
21
80
0
LINE
8
front_outsideCutPath
10
64.285
20
80
11
52.095
21
80
0
LINE
8
front_outsideCutPath
10
52.095
20
80
11
52.095
21
76.5
0
LINE
8
front_outsideCutPath
10
52.095
20
76.5
11
39.905
21
76.5
0
LINE
8
front_outsideCutPath
10
39.905
20
76.5
11
39.905
21
80
0
LINE
8
front_outsideCutPath
10
39.905
20
80
11
27.715
21
80
0
LINE
8
front_outsideCutPath
10
27.715
20
80
11
27.715
21
76.5
0
LINE
8
front_outsideCutPath
10
27.715
20
76.5
11
15.525
21
76.5
0
LINE
8
front_outsideCutPath
10
15.525
20
76.5
11
15.525
21
80
0
LINE
8
front_outsideCutPath
10
15.525
20
80
11
3.335
21
80
0
LINE
8
front_outsideCutPath
10
3.335
20
80
11
0
21
80
0
LINE
8
left_outsideCutPath
10
98.5
20
80
11
98.5
21
71.975
0
LINE
8
left_outsideCutPath
10
98.5
20
71.975
11
95
21
71.975
0
LINE
8
left_outsideCutPath
10
95
20
71.975
11
95
21
59.785
0
LINE
8
left_outsideCutPath
10
95
20
59.785
11
98.5
21
59.785
0
LINE
8
left_outsideCutPath
10
98.5
20
59.785
11
98.5
21
47.595
0
LINE
8
left_outsideCutPath
10
98.5
20
47.595
11
95
21
47.595
0
LINE
8
left_outsideCutPath
10
95
20
47.595
11
95
21
35.405
0
LINE
8
left_outsideCutPath
10
95
20
35.405
11
98.5
21
35.405
0
LINE
8
left_outsideCutPath
10
98.5
20
35.405
11
98.5
21
23.215
0
LINE
8
left_outsideCutPath
10
98.5
20
23.215
11
95
21
23.215
0
LINE
8
left_outsideCutPath
10
95
20
23.215
11
95
21
11.025
0
LINE
8
left_outsideCutPath
10
95
20
11.025
11
98.5
21
11.025
0
LINE
8
left_outsideCutPath
10
98.5
20
11.025
11
98.5
21
3
0
LINE
8
left_outsideCutPath
10
98.5
20
3
11
111.455
21
3
0
LINE
8
left_outsideCutPath
10
111.455
20
3
11
111.455
21
6.5
0
LINE
8
left_outsideCutPath
10
111.455
20
6.5
11
123.645
21
6.5
0
LINE
8
left_outsideCutPath
10
123.645
20
6.5
11
123.645
21
3
0
LINE
8
left_outsideCutPath
10
123.645
20
3
11
135.835
21
3
0
LINE
8
left_outsideCutPath
10
135.835
20
3
11
135.835
21
6.5
0
LINE
8
left_outsideCutPath
10
135.835
20
6.5
11
148.025
21
6.5
0
LINE
8
left_outsideCutPath
10
148.025
20
6.5
11
148.025
21
3
0
LINE
8
left_outsideCutPath
10
148.025
20
3
11
160.215
21
3
0
LINE
8
left_outsideCutPath
10
160.215
20
3
11
160.215
21
6.5
0
LINE
8
left_outsideCutPath
10
160.215
20
6.5
11
172.405
21
6.5
0
LINE
8
left_outsideCutPath
10
172.405
20
6.5
11
172.405
21
3
0
LINE
8
left_outsideCutPath
10
172.405
20
3
11
184.595
21
3
0
LINE
8
left_outsideCutPath
10
184.595
20
3
11
184.595
21
6.5
0
LINE
8
left_outsideCutPath
10
184.595
20
6.5
11
196.785
21
6.5
0
LINE
8
left_outsideCutPath
10
196.785
20
6.5
11
196.785
21
3
0
LINE
8
left_outsideCutPath
10
196.785
20
3
11
208.975
21
3
0
LINE
8
left_outsideCutPath
10
208.975
20
3
11
208.975
21
6.5
0
LINE
8
left_outsideCutPath
10
208.975
20
6.5
11
221.165
21
6.5
0
LINE
8
left_outsideCutPath
10
221.165
20
6.5
11
221.165
21
3
0
LINE
8
left_outsideCutPath
10
221.165
20
3
11
233.355
21
3
0
LINE
8
left_outsideCutPath
10
233.355
20
3
11
233.355
21
6.5
0
LINE
8
left_outsideCutPath
10
233.355
20
6.5
11
245.545
21
6.5
0
LINE
8
left_outsideCutPath
10
245.545
20
6.5
11
245.545
21
3
0
LINE
8
left_outsideCutPath
10
245.545
20
3
11
257.735
21
3
0
LINE
8
left_outsideCutPath
10
257.735
20
3
11
258.5
21
3
0
LINE
8
left_outsideCutPath
10
258.5
20
3
11
258.5
21
11.025
0
LINE
8
left_outsideCutPath
10
258.5
20
11.025
11
262
21
11.025
0
LINE
8
left_outsideCutPath
10
262
20
11.025
11
262
21
23.215
0
LINE
8
left_outsideCutPath
10
262
20
23.215
11
258.5
21
23.215
0
LINE
8
left_outsideCutPath
10
258.5
20
23.215
11
258.5
21
35.405
0
LINE
8
left_outsideCutPath
10
258.5
20
35.405
11
262
21
35.405
0
LINE
8
left_outsideCutPath
10
262
20
35.405
11
262
21
47.595
0
LINE
8
left_outsideCutPath
10
262
20
47.595
11
258.5
21
47.595
0
LINE
8
left_outsideCutPath
10
258.5
20
47.595
11
258.5
21
59.785
0
LINE
8
left_outsideCutPath
10
258.5
20
59.785
11
262
21
59.785
0
LINE
8
left_outsideCutPath
10
262
20
59.785
11
262
21
71.975
0
LINE
8
left_outsideCutPath
10
262
20
71.975
11
258.5
21
71.975
0
LINE
8
left_outsideCutPath
10
258.5
20
71.975
11
258.5
21
80
0
LINE
8
left_outsideCutPath
10
258.5
20
80
11
245.545
21
80
0
LINE
8
left_outsideCutPath
10
245.545
20
80
11
245.545
21
76.5
0
LINE
8
left_outsideCutPath
10
245.545
20
76.5
11
233.355
21
76.5
0
LINE
8
left_outsideCutPath
10
233.355
20
76.5
11
233.355
21
80
0
LINE
8
left_outsideCutPath
10
233.355
20
80
11
221.165
21
80
0
LINE
8
left_outsideCutPath
10
221.165
20
80
11
221.165
21
76.5
0
LINE
8
left_outsideCutPath
10
221.165
20
76.5
11
208.975
21
76.5
0
LINE
8
left_outsideCutPath
10
208.975
20
76.5
11
208.975
21
80
0
LINE
8
left_outsideCutPath
10
208.975
20
80
11
196.785
21
80
0
LINE
8
left_outsideCutPath
10
196.785
20
80
11
196.785
21
76.5
0
LINE
8
left_outsideCutPath
10
196.785
20
76.5
11
184.595
21
76.5
0
LINE
8
left_outsideCutPath
10
184.595
20
76.5
11
184.595
21
80
0
LINE
8
left_outsideCutPath
10
184.595
20
80
11
172.405
21
80
0
LINE
8
left_outsideCutPath
10
172.405
20
80
11
172.405
21
76.5
0
LINE
8
left_outsideCutPath
10
172.405
20
76.5
11
160.215
21
76.5
0
LINE
8
left_outsideCutPath
10
160.215
20
76.5
11
160.215
21
80
0
LINE
8
left_outsideCutPath
10
160.215
20
80
11
148.025
21
80
0
LINE
8
left_outsideCutPath
10
148.025
20
80
11
148.025
21
76.5
0
LINE
8
left_outsideCutPath
10
148.025
20
76.5
11
135.835
21
76.5
0
LINE
8
left_outsideCutPath
10
135.835
20
76.5
11
135.835
21
80
0
LINE
8
left_outsideCutPath
10
135.835
20
80
11
123.645
21
80
0
LINE
8
left_outsideCutPath
10
123.645
20
80
11
123.645
21
76.5
0
LINE
8
left_outsideCutPath
10
123.645
20
76.5
11
111.455
21
76.5
0
LINE
8
left_outsideCutPath
10
111.455
20
76.5
11
111.455
21
80
0
LINE
8
left_outsideCutPath
10
111.455
20
80
11
99.265
21
80
0
LINE
8
left_outsideCutPath
10
99.265
20
80
11
98.5
21
80
0
LINE
8
top_outsideCutPath
10
268.5
20
166.5
11
268.5
21
153.545
0
LINE
8
top_outsideCutPath
10
268.5
20
153.545
11
265
21
153.545
0
LINE
8
top_outsideCutPath
10
265
20
153.545
11
265
21
141.355
0
LINE
8
top_outsideCutPath
10
265
20
141.355
11
268.5
21
141.355
0
LINE
8
top_outsideCutPath
10
268.5
20
141.355
11
268.5
21
129.165
0
LINE
8
top_outsideCutPath
10
268.5
20
129.165
11
265
21
129.165
0
LINE
8
top_outsideCutPath
10
265
20
129.165
11
265
21
116.975
0
LINE
8
top_outsideCutPath
10
265
20
116.975
11
268.5
21
116.975
0
LINE
8
top_outsideCutPath
10
268.5
20
116.975
11
268.5
21
104.785
0
LINE
8
top_outsideCutPath
10
268.5
20
104.785
11
265
21
104.785
0
LINE
8
top_outsideCutPath
10
265
20
104.785
11
265
21
92.595
0
LINE
8
top_outsideCutPath
10
265
20
92.595
11
268.5
21
92.595
0
LINE
8
top_outsideCutPath
10
268.5
20
92.595
11
268.5
21
80.405
0
LINE
8
top_outsideCutPath
10
268.5
20
80.405
11
265
21
80.405
0
LINE
8
top_outsideCutPath
10
265
20
80.405
11
265
21
68.215
0
LINE
8
top_outsideCutPath
10
265
20
68.215
11
268.5
21
68.215
0
LINE
8
top_outsideCutPath
10
268.5
20
68.215
11
268.5
21
56.025
0
LINE
8
top_outsideCutPath
10
268.5
20
56.025
11
265
21
56.025
0
LINE
8
top_outsideCutPath
10
265
20
56.025
11
265
21
43.835
0
LINE
8
top_outsideCutPath
10
265
20
43.835
11
268.5
21
43.835
0
LINE
8
top_outsideCutPath
10
268.5
20
43.835
11
268.5
21
31.645
0
LINE
8
top_outsideCutPath
10
268.5
20
31.645
11
265
21
31.645
0
LINE
8
top_outsideCutPath
10
265
20
31.645
11
265
21
19.455
0
LINE
8
top_outsideCutPath
10
265
20
19.455
11
268.5
21
19.455
0
LINE
8
top_outsideCutPath
10
268.5
20
19.455
11
268.5
21
7.265
0
LINE
8
top_outsideCutPath
10
268.5
20
7.265
11
268.5
21
6.5
0
LINE
8
top_outsideCutPath
10
268.5
20
6.5
11
280.525
21
6.5
0
LINE
8
top_outsideCutPath
10
280.525
20
6.5
11
280.525
21
3
0
LINE
8
top_outsideCutPath
10
280.525
20
3
11
292.715
21
3
0
LINE
8
top_outsideCutPath
10
292.715
20
3
11
292.715
21
6.5
0
LINE
8
top_outsideCutPath
10
292.715
20
6.5
11
304.905
21
6.5
0
LINE
8
top_outsideCutPath
10
304.905
20
6.5
11
304.905
21
3
0
LINE
8
top_outsideCutPath
10
304.905
20
3
11
317.095
21
3
0
LINE
8
top_outsideCutPath
10
317.095
20
3
11
317.095
21
6.5
0
LINE
8
top_outsideCutPath
10
317.095
20
6.5
11
329.285
21
6.5
0
LINE
8
top_outsideCutPath
10
329.285
20
6.5
11
329.285
21
3
0
LINE
8
top_outsideCutPath
10
329.285
20
3
11
341.475
21
3
0
LINE
8
top_outsideCutPath
10
341.475
20
3
11
341.475
21
6.5
0
LINE
8
top_outsideCutPath
10
341.475
20
6.5
11
353.5
21
6.5
0
LINE
8
top_outsideCutPath
10
353.5
20
6.5
11
353.5
21
19.455
0
LINE
8
top_outsideCutPath
10
353.5
20
19.455
11
357
21
19.455
0
LINE
8
top_outsideCutPath
10
357
20
19.455
11
357
21
31.645
0
LINE
8
top_outsideCutPath
10
357
20
31.645
11
353.5
21
31.645
0
LINE
8
top_outsideCutPath
10
353.5
20
31.645
11
353.5
21
43.835
0
LINE
8
top_outsideCutPath
10
353.5
20
43.835
11
357
21
43.835
0
LINE
8
top_outsideCutPath
10
357
20
43.835
11
357
21
56.025
0
LINE
8
top_outsideCutPath
10
357
20
56.025
11
353.5
21
56.025
0
LINE
8
top_outsideCutPath
10
353.5
20
56.025
11
353.5
21
68.215
0
LINE
8
top_outsideCutPath
10
353.5
20
68.215
11
357
21
68.215
0
LINE
8
top_outsideCutPath
10
357
20
68.215
11
357
21
80.405
0
LINE
8
top_outsideCutPath
10
357
20
80.405
11
353.5
21
80.405
0
LINE
8
top_outsideCutPath
10
353.5
20
80.405
11
353.5
21
92.595
0
LINE
8
top_outsideCutPath
10
353.5
20
92.595
11
357
21
92.595
0
LINE
8
top_outsideCutPath
10
357
20
92.595
11
357
21
104.785
0
LINE
8
top_outsideCutPath
10
357
20
104.785
11
353.5
21
104.785
0
LINE
8
top_outsideCutPath
10
353.5
20
104.785
11
353.5
21
116.975
0
LINE
8
top_outsideCutPath
10
353.5
20
116.975
11
357
21
116.975
0
LINE
8
top_outsideCutPath
10
357
20
116.975
11
357
21
129.165
0
LINE
8
top_outsideCutPath
10
357
20
129.165
11
353.5
21
129.165
0
LINE
8
top_outsideCutPath
10
353.5
20
129.165
11
353.5
21
141.355
0
LINE
8
top_outsideCutPath
10
353.5
20
141.355
11
357
21
141.355
0
LINE
8
top_outsideCutPath
10
357
20
141.355
11
357
21
153.545
0
LINE
8
top_outsideCutPath
10
357
20
153.545
11
353.5
21
153.545
0
LINE
8
top_outsideCutPath
10
353.5
20
153.545
11
353.5
21
165.735
0
LINE
8
top_outsideCutPath
10
353.5
20
165.735
11
353.5
21
166.5
0
LINE
8
top_outsideCutPath
10
353.5
20
166.5
11
341.475
21
166.5
0
LINE
8
top_outsideCutPath
10
341.475
20
166.5
11
341.475
21
170
0
LINE
8
top_outsideCutPath
10
341.475
20
170
11
329.285
21
170
0
LINE
8
top_outsideCutPath
10
329.285
20
170
11
329.285
21
166.5
0
LINE
8
top_outsideCutPath
10
329.285
20
166.5
11
317.095
21
166.5
0
LINE
8
top_outsideCutPath
10
317.095
20
166.5
11
317.095
21
170
0
LINE
8
top_outsideCutPath
10
317.095
20
170
11
304.905
21
170
0
LINE
8
top_outsideCutPath
10
304.905
20
170
11
304.905
21
166.5
0
LINE
8
top_outsideCutPath
10
304.905
20
166.5
11
292.715
21
166.5
0
LINE
8
top_outsideCutPath
10
292.715
20
166.5
11
292.715
21
170
0
LINE
8
top_outsideCutPath
10
292.715
20
170
11
280.525
21
170
0
LINE
8
top_outsideCutPath
10
280.525
20
170
11
280.525
21
166.5
0
LINE
8
top_outsideCutPath
10
280.525
20
166.5
11
268.5
21
166.5
0
LINE
8
back_outsideCutPath
10
0
20
160
11
0
21
151.975
0
LINE
8
back_outsideCutPath
10
0
20
151.975
11
3.5
21
151.975
0
LINE
8
back_outsideCutPath
10
3.5
20
151.975
11
3.5
21
139.785
0
LINE
8
back_outsideCutPath
10
3.5
20
139.785
11
0
21
139.785
0
LINE
8
back_outsideCutPath
10
0
20
139.785
11
0
21
127.595
0
LINE
8
back_outsideCutPath
10
0
20
127.595
11
3.5
21
127.595
0
LINE
8
back_outsideCutPath
10
3.5
20
127.595
11
3.5
21
115.405
0
LINE
8
back_outsideCutPath
10
3.5
20
115.405
11
0
21
115.405
0
LINE
8
back_outsideCutPath
10
0
20
115.405
11
0
21
103.215
0
LINE
8
back_outsideCutPath
10
0
20
103.215
11
3.5
21
103.215
0
LINE
8
back_outsideCutPath
10
3.5
20
103.215
11
3.5
21
91.025
0
LINE
8
back_outsideCutPath
10
3.5
20
91.025
11
0
21
91.025
0
LINE
8
back_outsideCutPath
10
0
20
91.025
11
0
21
83
0
LINE
8
back_outsideCutPath
10
0
20
83
11
15.525
21
83
0
LINE
8
back_outsideCutPath
10
15.525
20
83
11
15.525
21
86.5
0
LINE
8
back_outsideCutPath
10
15.525
20
86.5
11
27.715
21
86.5
0
LINE
8
back_outsideCutPath
10
27.715
20
86.5
11
27.715
21
83
0
LINE
8
back_outsideCutPath
10
27.715
20
83
11
39.905
21
83
0
LINE
8
back_outsideCutPath
10
39.905
20
83
11
39.905
21
86.5
0
LINE
8
back_outsideCutPath
10
39.905
20
86.5
11
52.095
21
86.5
0
LINE
8
back_outsideCutPath
10
52.095
20
86.5
11
52.095
21
83
0
LINE
8
back_outsideCutPath
10
52.095
20
83
11
64.285
21
83
0
LINE
8
back_outsideCutPath
10
64.285
20
83
11
64.285
21
86.5
0
LINE
8
back_outsideCutPath
10
64.285
20
86.5
11
76.475
21
86.5
0
LINE
8
back_outsideCutPath
10
76.475
20
86.5
11
76.475
21
83
0
LINE
8
back_outsideCutPath
10
76.475
20
83
11
88.665
21
83
0
LINE
8
back_outsideCutPath
10
88.665
20
83
11
92
21
83
0
LINE
8
back_outsideCutPath
10
92
20
83
11
92
21
91.025
0
LINE
8
back_outsideCutPath
10
92
20
91.025
11
88.5
21
91.025
0
LINE
8
back_outsideCutPath
10
88.5
20
91.025
11
88.5
21
103.215
0
LINE
8
back_outsideCutPath
10
88.5
20
103.215
11
92
21
103.215
0
LINE
8
back_outsideCutPath
10
92
20
103.215
11
92
21
115.405
0
LINE
8
back_outsideCutPath
10
92
20
115.405
11
88.5
21
115.405
0
LINE
8
back_outsideCutPath
10
88.5
20
115.405
11
88.5
21
127.595
0
LINE
8
back_outsideCutPath
10
88.5
20
127.595
11
92
21
127.595
0
LINE
8
back_outsideCutPath
10
92
20
127.595
11
92
21
139.785
0
LINE
8
back_outsideCutPath
10
92
20
139.785
11
88.5
21
139.785
0
LINE
8
back_outsideCutPath
10
88.5
20
139.785
11
88.5
21
151.975
0
LINE
8
back_outsideCutPath
10
88.5
20
151.975
11
92
21
151.975
0
LINE
8
back_outsideCutPath
10
92
20
151.975
11
92
21
160
0
LINE
8
back_outsideCutPath
10
92
20
160
11
76.475
21
160
0
LINE
8
back_outsideCutPath
10
76.475
20
160
11
76.475
21
156.5
0
LINE
8
back_outsideCutPath
10
76.475
20
156.5
11
64.285
21
156.5
0
LINE
8
back_outsideCutPath
10
64.285
20
156.5
11
64.285
21
160
0
LINE
8
back_outsideCutPath
10
64.285
20
160
11
52.095
21
160
0
LINE
8
back_outsideCutPath
10
52.095
20
160
11
52.095
21
156.5
0
LINE
8
back_outsideCutPath
10
52.095
20
156.5
11
39.905
21
156.5
0
LINE
8
back_outsideCutPath
10
39.905
20
156.5
11
39.905
21
160
0
LINE
8
back_outsideCutPath
10
39.905
20
160
11
27.715
21
160
0
LINE
8
back_outsideCutPath
10
27.715
20
160
11
27.715
21
156.5
0
LINE
8
back_outsideCutPath
10
27.715
20
156.5
11
15.525
21
156.5
0
LINE
8
back_outsideCutPath
10
15.525
20
156.5
11
15.525
21
160
0
LINE
8
back_outsideCutPath
10
15.525
20
160
11
3.335
21
160
0
LINE
8
back_outsideCutPath
10
3.335
20
160
11
0
21
160
0
LINE
8
right_outsideCutPath
10
98.5
20
160
11
98.5
21
151.975
0
LINE
8
right_outsideCutPath
10
98.5
20
151.975
11
95
21
151.975
0
LINE
8
right_outsideCutPath
10
95
20
151.975
11
95
21
139.785
0
LINE
8
right_outsideCutPath
10
95
20
139.785
11
98.5
21
139.785
0
LINE
8
right_outsideCutPath
10
98.5
20
139.785
11
98.5
21
127.595
0
LINE
8
right_outsideCutPath
10
98.5
20
127.595
11
95
21
127.595
0
LINE
8
right_outsideCutPath
10
95
20
127.595
11
95
21
115.405
0
LINE
8
right_outsideCutPath
10
95
20
115.405
11
98.5
21
115.405
0
LINE
8
right_outsideCutPath
10
98.5
20
115.405
11
98.5
21
103.215
0
LINE
8
right_outsideCutPath
10
98.5
20
103.215
11
95
21
103.215
0
LINE
8
right_outsideCutPath
10
95
20
103.215
11
95
21
91.025
0
LINE
8
right_outsideCutPath
10
95
20
91.025
11
98.5
21
91.025
0
LINE
8
right_outsideCutPath
10
98.5
20
91.025
11
98.5
21
83
0
LINE
8
right_outsideCutPath
10
98.5
20
83
11
111.455
21
83
0
LINE
8
right_outsideCutPath
10
111.455
20
83
11
111.455
21
86.5
0
LINE
8
right_outsideCutPath
10
111.455
20
86.5
11
123.645
21
86.5
0
LINE
8
right_outsideCutPath
10
123.645
20
86.5
11
123.645
21
83
0
LINE
8
right_outsideCutPath
10
123.645
20
83
11
135.835
21
83
0
LINE
8
right_outsideCutPath
10
135.835
20
83
11
135.835
21
86.5
0
LINE
8
right_outsideCutPath
10
135.835
20
86.5
11
148.025
21
86.5
0
LINE
8
right_outsideCutPath
10
148.025
20
86.5
11
148.025
21
83
0
LINE
8
right_outsideCutPath
10
148.025
20
83
11
160.215
21
83
0
LINE
8
right_outsideCutPath
10
160.215
20
83
11
160.215
21
86.5
0
LINE
8
right_outsideCutPath
10
160.215
20
86.5
11
172.405
21
86.5
0
LINE
8
right_outsideCutPath
10
172.405
20
86.5
11
172.405
21
83
0
LINE
8
right_outsideCutPath
10
172.405
20
83
11
184.595
21
83
0
LINE
8
right_outsideCutPath
10
184.595
20
83
11
184.595
21
86.5
0
LINE
8
right_outsideCutPath
10
184.595
20
86.5
11
196.785
21
86.5
0
LINE
8
right_outsideCutPath
10
196.785
20
86.5
11
196.785
21
83
0
LINE
8
right_outsideCutPath
10
196.785
20
83
11
208.975
21
83
0
LINE
8
right_outsideCutPath
10
208.975
20
83
11
208.975
21
86.5
0
LINE
8
right_outsideCutPath
10
208.975
20
86.5
11
221.165
21
86.5
0
LINE
8
right_outsideCutPath
10
221.165
20
86.5
11
221.165
21
83
0
LINE
8
right_outsideCutPath
10
221.165
20
83
11
233.355
21
83
0
LINE
8
right_outsideCutPath
10
233.355
20
83
11
233.355
21
86.5
0
LINE
8
right_outsideCutPath
10
233.355
20
86.5
11
245.545
21
86.5
0
LINE
8
right_outsideCutPath
10
245.545
20
86.5
11
245.545
21
83
0
LINE
8
right_outsideCutPath
10
245.545
20
83
11
257.735
21
83
0
LINE
8
right_outsideCutPath
10
257.735
20
83
11
258.5
21
83
0
LINE
8
right_outsideCutPath
10
258.5
20
83
11
258.5
21
91.025
0
LINE
8
right_outsideCutPath
10
258.5
20
91.025
11
262
21
91.025
0
LINE
8
right_outsideCutPath
10
262
20
91.025
11
262
21
103.215
0
LINE
8
right_outsideCutPath
10
262
20
103.215
11
258.5
21
103.215
0
LINE
8
right_outsideCutPath
10
258.5
20
103.215
11
258.5
21
115.405
0
LINE
8
right_outsideCutPath
10
258.5
20
115.405
11
262
21
115.405
0
LINE
8
right_outsideCutPath
10
262
20
115.405
11
262
21
127.595
0
LINE
8
right_outsideCutPath
10
262
20
127.595
11
258.5
21
127.595
0
LINE
8
right_outsideCutPath
10
258.5
20
127.595
11
258.5
21
139.785
0
LINE
8
right_outsideCutPath
10
258.5
20
139.785
11
262
21
139.785
0
LINE
8
right_outsideCutPath
10
262
20
139.785
11
262
21
151.975
0
LINE
8
right_outsideCutPath
10
262
20
151.975
11
258.5
21
151.975
0
LINE
8
right_outsideCutPath
10
258.5
20
151.975
11
258.5
21
160
0
LINE
8
right_outsideCutPath
10
258.5
20
160
11
245.545
21
160
0
LINE
8
right_outsideCutPath
10
245.545
20
160
11
245.545
21
156.5
0
LINE
8
right_outsideCutPath
10
245.545
20
156.5
11
233.355
21
156.5
0
LINE
8
right_outsideCutPath
10
233.355
20
156.5
11
233.355
21
160
0
LINE
8
right_outsideCutPath
10
233.355
20
160
11
221.165
21
160
0
LINE
8
right_outsideCutPath
10
221.165
20
160
11
221.165
21
156.5
0
LINE
8
right_outsideCutPath
10
221.165
20
156.5
11
208.975
21
156.5
0
LINE
8
right_outsideCutPath
10
208.975
20
156.5
11
208.975
21
160
0
LINE
8
right_outsideCutPath
10
208.975
20
160
11
196.785
21
160
0
LINE
8
right_outsideCutPath
10
196.785
20
160
11
196.785
21
156.5
0
LINE
8
right_outsideCutPath
10
196.785
20
156.5
11
184.595
21
156.5
0
LINE
8
right_outsideCutPath
10
184.595
20
156.5
11
184.595
21
160
0
LINE
8
right_outsideCutPath
10
184.595
20
160
11
172.405
21
160
0
LINE
8
right_outsideCutPath
10
172.405
20
160
11
172.405
21
156.5
0
LINE
8
right_outsideCutPath
10
172.405
20
156.5
11
160.215
21
156.5
0
LINE
8
right_outsideCutPath
10
160.215
20
156.5
11
160.215
21
160
0
LINE
8
right_outsideCutPath
10
160.215
20
160
11
148.025
21
160
0
LINE
8
right_outsideCutPath
10
148.025
20
160
11
148.025
21
156.5
0
LINE
8
right_outsideCutPath
10
148.025
20
156.5
11
135.835
21
156.5
0
LINE
8
right_outsideCutPath
10
135.835
20
156.5
11
135.835
21
160
0
LINE
8
right_outsideCutPath
10
135.835
20
160
11
123.645
21
160
0
LINE
8
right_outsideCutPath
10
123.645
20
160
11
123.645
21
156.5
0
LINE
8
right_outsideCutPath
10
123.645
20
156.5
11
111.455
21
156.5
0
LINE
8
right_outsideCutPath
10
111.455
20
156.5
11
111.455
21
160
0
LINE
8
right_outsideCutPath
10
111.455
20
160
11
99.265
21
160
0
LINE
8
right_outsideCutPath
10
99.265
20
160
11
98.5
21
160
0
LINE
8
bottom_outsideCutPath
10
268.5
20
336.5
11
268.5
21
323.545
0
LINE
8
bottom_outsideCutPath
10
268.5
20
323.545
11
265
21
323.545
0
LINE
8
bottom_outsideCutPath
10
265
20
323.545
11
265
21
311.355
0
LINE
8
bottom_outsideCutPath
10
265
20
311.355
11
268.5
21
311.355
0
LINE
8
bottom_outsideCutPath
10
268.5
20
311.355
11
268.5
21
299.165
0
LINE
8
bottom_outsideCutPath
10
268.5
20
299.165
11
265
21
299.165
0
LINE
8
bottom_outsideCutPath
10
265
20
299.165
11
265
21
286.975
0
LINE
8
bottom_outsideCutPath
10
265
20
286.975
11
268.5
21
286.975
0
LINE
8
bottom_outsideCutPath
10
268.5
20
286.975
11
268.5
21
274.785
0
LINE
8
bottom_outsideCutPath
10
268.5
20
274.785
11
265
21
274.785
0
LINE
8
bottom_outsideCutPath
10
265
20
274.785
11
265
21
262.595
0
LINE
8
bottom_outsideCutPath
10
265
20
262.595
11
268.5
21
262.595
0
LINE
8
bottom_outsideCutPath
10
268.5
20
262.595
11
268.5
21
250.405
0
LINE
8
bottom_outsideCutPath
10
268.5
20
250.405
11
265
21
250.405
0
LINE
8
bottom_outsideCutPath
10
265
20
250.405
11
265
21
238.215
0
LINE
8
bottom_outsideCutPath
10
265
20
238.215
11
268.5
21
238.215
0
LINE
8
bottom_outsideCutPath
10
268.5
20
238.215
11
268.5
21
226.025
0
LINE
8
bottom_outsideCutPath
10
268.5
20
226.025
11
265
21
226.025
0
LINE
8
bottom_outsideCutPath
10
265
20
226.025
11
265
21
213.835
0
LINE
8
bottom_outsideCutPath
10
265
20
213.835
11
268.5
21
213.835
0
LINE
8
bottom_outsideCutPath
10
268.5
20
213.835
11
268.5
21
201.645
0
LINE
8
bottom_outsideCutPath
10
268.5
20
201.645
11
265
21
201.645
0
LINE
8
bottom_outsideCutPath
10
265
20
201.645
11
265
21
189.455
0
LINE
8
bottom_outsideCutPath
10
265
20
189.455
11
268.5
21
189.455
0
LINE
8
bottom_outsideCutPath
10
268.5
20
189.455
11
268.5
21
177.265
0
LINE
8
bottom_outsideCutPath
10
268.5
20
177.265
11
268.5
21
176.5
0
LINE
8
bottom_outsideCutPath
10
268.5
20
176.5
11
280.525
21
176.5
0
LINE
8
bottom_outsideCutPath
10
280.525
20
176.5
11
280.525
21
173
0
LINE
8
bottom_outsideCutPath
10
280.525
20
173
11
292.715
21
173
0
LINE
8
bottom_outsideCutPath
10
292.715
20
173
11
292.715
21
176.5
0
LINE
8
bottom_outsideCutPath
10
292.715
20
176.5
11
304.905
21
176.5
0
LINE
8
bottom_outsideCutPath
10
304.905
20
176.5
11
304.905
21
173
0
LINE
8
bottom_outsideCutPath
10
304.905
20
173
11
317.095
21
173
0
LINE
8
bottom_outsideCutPath
10
317.095
20
173
11
317.095
21
176.5
0
LINE
8
bottom_outsideCutPath
10
317.095
20
176.5
11
329.285
21
176.5
0
LINE
8
bottom_outsideCutPath
10
329.285
20
176.5
11
329.285
21
173
0
LINE
8
bottom_outsideCutPath
10
329.285
20
173
11
341.475
21
173
0
LINE
8
bottom_outsideCutPath
10
341.475
20
173
11
341.475
21
176.5
0
LINE
8
bottom_outsideCutPath
10
341.475
20
176.5
11
353.5
21
176.5
0
LINE
8
bottom_outsideCutPath
10
353.5
20
176.5
11
353.5
21
189.455
0
LINE
8
bottom_outsideCutPath
10
353.5
20
189.455
11
357
21
189.455
0
LINE
8
bottom_outsideCutPath
10
357
20
189.455
11
357
21
201.645
0
LINE
8
bottom_outsideCutPath
10
357
20
201.645
11
353.5
21
201.645
0
LINE
8
bottom_outsideCutPath
10
353.5
20
201.645
11
353.5
21
213.835
0
LINE
8
bottom_outsideCutPath
10
353.5
20
213.835
11
357
21
213.835
0
LINE
8
bottom_outsideCutPath
10
357
20
213.835
11
357
21
226.025
0
LINE
8
bottom_outsideCutPath
10
357
20
226.025
11
353.5
21
226.025
0
LINE
8
bottom_outsideCutPath
10
353.5
20
226.025
11
353.5
21
238.215
0
LINE
8
bottom_outsideCutPath
10
353.5
20
238.215
11
357
21
238.215
0
LINE
8
bottom_outsideCutPath
10
357
20
238.215
11
357
21
250.405
0
LINE
8
bottom_outsideCutPath
10
357
20
250.405
11
353.5
21
250.405
0
LINE
8
bottom_outsideCutPath
10
353.5
20
250.405
11
353.5
21
262.595
0
LINE
8
bottom_outsideCutPath
10
353.5
20
262.595
11
357
21
262.595
0
LINE
8
bottom_outsideCutPath
10
357
20
262.595
11
357
21
274.785
0
LINE
8
bottom_outsideCutPath
10
357
20
274.785
11
353.5
21
274.785
0
LINE
8
bottom_outsideCutPath
10
353.5
20
274.785
11
353.5
21
286.975
0
LINE
8
bottom_outsideCutPath
10
353.5
20
286.975
11
357
21
286.975
0
LINE
8
bottom_outsideCutPath
10
357
20
286.975
11
357
21
299.165
0
LINE
8
bottom_outsideCutPath
10
357
20
299.165
11
353.5
21
299.165
0
LINE
8
bottom_outsideCutPath
10
353.5
20
299.165
11
353.5
21
311.355
0
LINE
8
bottom_outsideCutPath
10
353.5
20
311.355
11
357
21
311.355
0
LINE
8
bottom_outsideCutPath
10
357
20
311.355
11
357
21
323.545
0
LINE
8
bottom_outsideCutPath
10
357
20
323.545
11
353.5
21
323.545
0
LINE
8
bottom_outsideCutPath
10
353.5
20
323.545
11
353.5
21
335.735
0
LINE
8
bottom_outsideCutPath
10
353.5
20
335.735
11
353.5
21
336.5
0
LINE
8
bottom_outsideCutPath
10
353.5
20
336.5
11
341.475
21
336.5
0
LINE
8
bottom_outsideCutPath
10
341.475
20
336.5
11
341.475
21
340
0
LINE
8
bottom_outsideCutPath
10
341.475
20
340
11
329.285
21
340
0
LINE
8
bottom_outsideCutPath
10
329.285
20
340
11
329.285
21
336.5
0
LINE
8
bottom_outsideCutPath
10
329.285
20
336.5
11
317.095
21
336.5
0
LINE
8
bottom_outsideCutPath
10
317.095
20
336.5
11
317.095
21
340
0
LINE
8
bottom_outsideCutPath
10
317.095
20
340
11
304.905
21
340
0
LINE
8
bottom_outsideCutPath
10
304.905
20
340
11
304.905
21
336.5
0
LINE
8
bottom_outsideCutPath
10
304.905
20
336.5
11
292.715
21
336.5
0
LINE
8
bottom_outsideCutPath
10
292.715
20
336.5
11
292.715
21
340
0
LINE
8
bottom_outsideCutPath
10
292.715
20
340
11
280.525
21
340
0
LINE
8
bottom_outsideCutPath
10
280.525
20
340
11
280.525
21
336.5
0
LINE
8
bottom_outsideCutPath
10
280.525
20
336.5
11
268.5
21
336.5
0
ENDSEC
0
EOF