0
SECTION
2
HEADER
9
$INSUNITS
70
4
0
ENDSEC
0
SECTION
2
TABLES
0
TABLE
2
LTYPE
0
LTYPE
72
65
70
64
2
CONTINUOUS
3
______
73
0
40
0
0
ENDTAB
0
TABLE
2
LAYER
0
ENDTAB
0
ENDSEC
0
SECTION
2
ENTITIES
0
LINE
8
front_outsideCutPath
10
0
20
70
11
0
21
54.785
0
LINE
8
front_outsideCutPath
10
0
20
54.785
11
3.5
21
54.785
0
LINE
8
front_outsideCutPath
10
3.5
20
54.785
11
3.5
21
42.595
0
LINE
8
front_outsideCutPath
10
3.5
20
42.595
11
0
21
42.595
0
LINE
8
front_outsideCutPath
10
0
20
42.595
11
0
21
30.405
0
LINE
8
front_outsideCutPath
10
0
20
30.405
11
3.5
21
30.405
0
LINE
8
front_outsideCutPath
10
3.5
20
30.405
11
3.5
21
18.215
0
LINE
8
front_outsideCutPath
10
3.5
20
18.215
11
0
21
18.215
0
LINE
8
front_outsideCutPath
10
0
20
18.215
11
0
21
6.025
0
LINE
8
front_outsideCutPath
10
0
20
6.025
11
0
21
3
0
LINE
8
front_outsideCutPath
10
0
20
3
11
10.525
21
3
0
LINE
8
front_outsideCutPath
10
10.525
20
3
11
10.525
21
6.5
0
LINE
8
front_outsideCutPath
10
10.525
20
6.5
11
22.715
21
6.5
0
LINE
8
front_outsideCutPath
10
22.715
20
6.5
11
22.715
21
3
0
LINE
8
front_outsideCutPath
10
22.715
20
3
11
34.905
21
3
0
LINE
8
front_outsideCutPath
10
34.905
20
3
11
34.905
21
6.5
0
LINE
8
front_outsideCutPath
10
34.905
20
6.5
11
47.095
21
6.5
0
LINE
8
front_outsideCutPath
10
47.095
20
6.5
11
47.095
21
3
0
LINE
8
front_outsideCutPath
10
47.095
20
3
11
59.285
21
3
0
LINE
8
front_outsideCutPath
10
59.285
20
3
11
59.285
21
6.5
0
LINE
8
front_outsideCutPath
10
59.285
20
6.5
11
71.475
21
6.5
0
LINE
8
front_outsideCutPath
10
71.475
20
6.5
11
71.475
21
3
0
LINE
8
front_outsideCutPath
10
71.475
20
3
11
82
21
3
0
LINE
8
front_outsideCutPath
10
82
20
3
11
82
21
18.215
0
LINE
8
front_outsideCutPath
10
82
20
18.215
11
78.5
21
18.215
0
LINE
8
front_outsideCutPath
10
78.5
20
18.215
11
78.5
21
30.405
0
LINE
8
front_outsideCutPath
10
78.5
20
30.405
11
82
21
30.405
0
LINE
8
front_outsideCutPath
10
82
20
30.405
11
82
21
42.595
0
LINE
8
front_outsideCutPath
10
82
20
42.595
11
78.5
21
42.595
0
LINE
8
front_outsideCutPath
10
78.5
20
42.595
11
78.5
21
54.785
0
LINE
8
front_outsideCutPath
10
78.5
20
54.785
11
82
21
54.785
0
LINE
8
front_outsideCutPath
10
82
20
54.785
11
82
21
66.975
0
LINE
8
front_outsideCutPath
10
82
20
66.975
11
82
21
70
0
LINE
8
front_outsideCutPath
10
82
20
70
11
71.475
21
70
0
LINE
8
front_outsideCutPath
10
71.475
20
70
11
71.475
21
66.5
0
LINE
8
front_outsideCutPath
10
71.475
20
66.5
11
59.285
21
66.5
0
LINE
8
front_outsideCutPath
10
59.285
20
66.5
11
59.285
21
70
0
LINE
8
front_outsideCutPath
10
59.285
20
70
11
47.095
21
70
0
LINE
8
front_outsideCutPath
10
47.095
20
70
11
47.095
21
66.5
0
LINE
8
front_outsideCutPath
10
47.095
20
66.5
11
34.905
21
66.5
0
LINE
8
front_outsideCutPath
10
34.905
20
66.5
11
34.905
21
70
0
LINE
8
front_outsideCutPath
10
34.905
20
70
11
22.715
21
70
0
LINE
8
front_outsideCutPath
10
22.715
20
70
11
22.715
21
66.5
0
LINE
8
front_outsideCutPath
10
22.715
20
66.5
11
10.525
21
66.5
0
LINE
8
front_outsideCutPath
10
10.525
20
66.5
11
10.525
21
70
0
LINE
8
front_outsideCutPath
10
10.525
20
70
11
0
21
70
0
LINE
8
left_outsideCutPath
10
88.5
20
70
11
88.5
21
54.785
0
LINE
8
left_outsideCutPath
10
88.5
20
54.785
11
85
21
54.785
0
LINE
8
left_outsideCutPath
10
85
20
54.785
11
85
21
42.595
0
LINE
8
left_outsideCutPath
10
85
20
42.595
11
88.5
21
42.595
0
LINE
8
left_outsideCutPath
10
88.5
20
42.595
11
88.5
21
30.405
0
LINE
8
left_outsideCutPath
10
88.5
20
30.405
11
85
21
30.405
0
LINE
8
left_outsideCutPath
10
85
20
30.405
11
85
21
18.215
0
LINE
8
left_outsideCutPath
10
85
20
18.215
11
88.5
21
18.215
0
LINE
8
left_outsideCutPath
10
88.5
20
18.215
11
88.5
21
6.025
0
LINE
8
left_outsideCutPath
10
88.5
20
6.025
11
88.5
21
3
0
LINE
8
left_outsideCutPath
10
88.5
20
3
11
93.025
21
3
0
LINE
8
left_outsideCutPath
10
93.025
20
3
11
93.025
21
6.5
0
LINE
8
left_outsideCutPath
10
93.025
20
6.5
11
105.215
21
6.5
0
LINE
8
left_outsideCutPath
10
105.215
20
6.5
11
105.215
21
3
0
LINE
8
left_outsideCutPath
10
105.215
20
3
11
117.405
21
3
0
LINE
8
left_outsideCutPath
10
117.405
20
3
11
117.405
21
6.5
0
LINE
8
left_outsideCutPath
10
117.405
20
6.5
11
129.595
21
6.5
0
LINE
8
left_outsideCutPath
10
129.595
20
6.5
11
129.595
21
3
0
LINE
8
left_outsideCutPath
10
129.595
20
3
11
141.785
21
3
0
LINE
8
left_outsideCutPath
10
141.785
20
3
11
141.785
21
6.5
0
LINE
8
left_outsideCutPath
10
141.785
20
6.5
11
153.975
21
6.5
0
LINE
8
left_outsideCutPath
10
153.975
20
6.5
11
153.975
21
3
0
LINE
8
left_outsideCutPath
10
153.975
20
3
11
158.5
21
3
0
LINE
8
left_outsideCutPath
10
158.5
20
3
11
158.5
21
18.215
0
LINE
8
left_outsideCutPath
10
158.5
20
18.215
11
162
21
18.215
0
LINE
8
left_outsideCutPath
10
162
20
18.215
11
162
21
30.405
0
LINE
8
left_outsideCutPath
10
162
20
30.405
11
158.5
21
30.405
0
LINE
8
left_outsideCutPath
10
158.5
20
30.405
11
158.5
21
42.595
0
LINE
8
left_outsideCutPath
10
158.5
20
42.595
11
162
21
42.595
0
LINE
8
left_outsideCutPath
10
162
20
42.595
11
162
21
54.785
0
LINE
8
left_outsideCutPath
10
162
20
54.785
11
158.5
21
54.785
0
LINE
8
left_outsideCutPath
10
158.5
20
54.785
11
158.5
21
66.975
0
LINE
8
left_outsideCutPath
10
158.5
20
66.975
11
158.5
21
70
0
LINE
8
left_outsideCutPath
10
158.5
20
70
11
153.975
21
70
0
LINE
8
left_outsideCutPath
10
153.975
20
70
11
153.975
21
66.5
0
LINE
8
left_outsideCutPath
10
153.975
20
66.5
11
141.785
21
66.5
0
LINE
8
left_outsideCutPath
10
141.785
20
66.5
11
141.785
21
70
0
LINE
8
left_outsideCutPath
10
141.785
20
70
11
129.595
21
70
0
LINE
8
left_outsideCutPath
10
129.595
20
70
11
129.595
21
66.5
0
LINE
8
left_outsideCutPath
10
129.595
20
66.5
11
117.405
21
66.5
0
LINE
8
left_outsideCutPath
10
117.405
20
66.5
11
117.405
21
70
0
LINE
8
left_outsideCutPath
10
117.405
20
70
11
105.215
21
70
0
LINE
8
left_outsideCutPath
10
105.215
20
70
11
105.215
21
66.5
0
LINE
8
left_outsideCutPath
10
105.215
20
66.5
11
93.025
21
66.5
0
LINE
8
left_outsideCutPath
10
93.025
20
66.5
11
93.025
21
70
0
LINE
8
left_outsideCutPath
10
93.025
20
70
11
88.5
21
70
0
LINE
8
top_outsideCutPath
10
168.5
20
76.5
11
168.5
21
71.975
0
LINE
8
top_outsideCutPath
10
168.5
20
71.975
11
165
21
71.975
0
LINE
8
top_outsideCutPath
10
165
20
71.975
11
165
21
59.785
0
LINE
8
top_outsideCutPath
10
165
20
59.785
11
168.5
21
59.785
0
LINE
8
top_outsideCutPath
10
168.5
20
59.785
11
168.5
21
47.595
0
LINE
8
top_outsideCutPath
10
168.5
20
47.595
11
165
21
47.595
0
LINE
8
top_outsideCutPath
10
165
20
47.595
11
165
21
35.405
0
LINE
8
top_outsideCutPath
10
165
20
35.405
11
168.5
21
35.405
0
LINE
8
top_outsideCutPath
10
168.5
20
35.405
11
168.5
21
23.215
0
LINE
8
top_outsideCutPath
10
168.5
20
23.215
11
165
21
23.215
0
LINE
8
top_outsideCutPath
10
165
20
23.215
11
165
21
11.025
0
LINE
8
top_outsideCutPath
10
165
20
11.025
11
168.5
21
11.025
0
LINE
8
top_outsideCutPath
10
168.5
20
11.025
11
168.5
21
6.5
0
LINE
8
top_outsideCutPath
10
168.5
20
6.5
11
175.525
21
6.5
0
LINE
8
top_outsideCutPath
10
175.525
20
6.5
11
175.525
21
3
0
LINE
8
top_outsideCutPath
10
175.525
20
3
11
187.715
21
3
0
LINE
8
top_outsideCutPath
10
187.715
20
3
11
187.715
21
6.5
0
LINE
8
top_outsideCutPath
10
187.715
20
6.5
11
199.905
21
6.5
0
LINE
8
top_outsideCutPath
10
199.905
20
6.5
11
199.905
21
3
0
LINE
8
top_outsideCutPath
10
199.905
20
3
11
212.095
21
3
0
LINE
8
top_outsideCutPath
10
212.095
20
3
11
212.095
21
6.5
0
LINE
8
top_outsideCutPath
10
212.095
20
6.5
11
224.285
21
6.5
0
LINE
8
top_outsideCutPath
10
224.285
20
6.5
11
224.285
21
3
0
LINE
8
top_outsideCutPath
10
224.285
20
3
11
236.475
21
3
0
LINE
8
top_outsideCutPath
10
236.475
20
3
11
236.475
21
6.5
0
LINE
8
top_outsideCutPath
10
236.475
20
6.5
11
243.5
21
6.5
0
LINE
8
top_outsideCutPath
10
243.5
20
6.5
11
243.5
21
11.025
0
LINE
8
top_outsideCutPath
10
243.5
20
11.025
11
247
21
11.025
0
LINE
8
top_outsideCutPath
10
247
20
11.025
11
247
21
23.215
0
LINE
8
top_outsideCutPath
10
247
20
23.215
11
243.5
21
23.215
0
LINE
8
top_outsideCutPath
10
243.5
20
23.215
11
243.5
21
35.405
0
LINE
8
top_outsideCutPath
10
243.5
20
35.405
11
247
21
35.405
0
LINE
8
top_outsideCutPath
10
247
20
35.405
11
247
21
47.595
0
LINE
8
top_outsideCutPath
10
247
20
47.595
11
243.5
21
47.595
0
LINE
8
top_outsideCutPath
10
243.5
20
47.595
11
243.5
21
59.785
0
LINE
8
top_outsideCutPath
10
243.5
20
59.785
11
247
21
59.785
0
LINE
8
top_outsideCutPath
10
247
20
59.785
11
247
21
71.975
0
LINE
8
top_outsideCutPath
10
247
20
71.975
11
243.5
21
71.975
0
LINE
8
top_outsideCutPath
10
243.5
20
71.975
11
243.5
21
76.5
0
LINE
8
top_outsideCutPath
10
243.5
20
76.5
11
236.475
21
76.5
0
LINE
8
top_outsideCutPath
10
236.475
20
76.5
11
236.475
21
80
0
LINE
8
top_outsideCutPath
10
236.475
20
80
11
224.285
21
80
0
LINE
8
top_outsideCutPath
10
224.285
20
80
11
224.285
21
76.5
0
LINE
8
top_outsideCutPath
10
224.285
20
76.5
11
212.095
21
76.5
0
LINE
8
top_outsideCutPath
10
212.095
20
76.5
11
212.095
21
80
0
LINE
8
top_outsideCutPath
10
212.095
20
80
11
199.905
21
80
0
LINE
8
top_outsideCutPath
10
199.905
20
80
11
199.905
21
76.5
0
LINE
8
top_outsideCutPath
10
199.905
20
76.5
11
187.715
21
76.5
0
LINE
8
top_outsideCutPath
10
187.715
20
76.5
11
187.715
21
80
0
LINE
8
top_outsideCutPath
10
187.715
20
80
11
175.525
21
80
0
LINE
8
top_outsideCutPath
10
175.525
20
80
11
175.525
21
76.5
0
LINE
8
top_outsideCutPath
10
175.525
20
76.5
11
168.5
21
76.5
0
LINE
8
back_outsideCutPath
10
0
20
140
11
0
21
124.785
0
LINE
8
back_outsideCutPath
10
0
20
124.785
11
3.5
21
124.785
0
LINE
8
back_outsideCutPath
10
3.5
20
124.785
11
3.5
21
112.595
0
LINE
8
back_outsideCutPath
10
3.5
20
112.595
11
0
21
112.595
0
LINE
8
back_outsideCutPath
10
0
20
112.595
11
0
21
100.405
0
LINE
8
back_outsideCutPath
10
0
20
100.405
11
3.5
21
100.405
0
LINE
8
back_outsideCutPath
10
3.5
20
100.405
11
3.5
21
88.215
0
LINE
8
back_outsideCutPath
10
3.5
20
88.215
11
0
21
88.215
0
LINE
8
back_outsideCutPath
10
0
20
88.215
11
0
21
76.025
0
LINE
8
back_outsideCutPath
10
0
20
76.025
11
0
21
73
0
LINE
8
back_outsideCutPath
10
0
20
73
11
10.525
21
73
0
LINE
8
back_outsideCutPath
10
10.525
20
73
11
10.525
21
76.5
0
LINE
8
back_outsideCutPath
10
10.525
20
76.5
11
22.715
21
76.5
0
LINE
8
back_outsideCutPath
10
22.715
20
76.5
11
22.715
21
73
0
LINE
8
back_outsideCutPath
10
22.715
20
73
11
34.905
21
73
0
LINE
8
back_outsideCutPath
10
34.905
20
73
11
34.905
21
76.5
0
LINE
8
back_outsideCutPath
10
34.905
20
76.5
11
47.095
21
76.5
0
LINE
8
back_outsideCutPath
10
47.095
20
76.5
11
47.095
21
73
0
LINE
8
back_outsideCutPath
10
47.095
20
73
11
59.285
21
73
0
LINE
8
back_outsideCutPath
10
59.285
20
73
11
59.285
21
76.5
0
LINE
8
back_outsideCutPath
10
59.285
20
76.5
11
71.475
21
76.5
0
LINE
8
back_outsideCutPath
10
71.475
20
76.5
11
71.475
21
73
0
LINE
8
back_outsideCutPath
10
71.475
20
73
11
82
21
73
0
LINE
8
back_outsideCutPath
10
82
20
73
11
82
21
88.215
0
LINE
8
back_outsideCutPath
10
82
20
88.215
11
78.5
21
88.215
0
LINE
8
back_outsideCutPath
10
78.5
20
88.215
11
78.5
21
100.405
0
LINE
8
back_outsideCutPath
10
78.5
20
100.405
11
82
21
100.405
0
LINE
8
back_outsideCutPath
10
82
20
100.405
11
82
21
112.595
0
LINE
8
back_outsideCutPath
10
82
20
112.595
11
78.5
21
112.595
0
LINE
8
back_outsideCutPath
10
78.5
20
112.595
11
78.5
21
124.785
0
LINE
8
back_outsideCutPath
10
78.5
20
124.785
11
82
21
124.785
0
LINE
8
back_outsideCutPath
10
82
20
124.785
11
82
21
136.975
0
LINE
8
back_outsideCutPath
10
82
20
136.975
11
82
21
140
0
LINE
8
back_outsideCutPath
10
82
20
140
11
71.475
21
140
0
LINE
8
back_outsideCutPath
10
71.475
20
140
11
71.475
21
136.5
0
LINE
8
back_outsideCutPath
10
71.475
20
136.5
11
59.285
21
136.5
0
LINE
8
back_outsideCutPath
10
59.285
20
136.5
11
59.285
21
140
0
LINE
8
back_outsideCutPath
10
59.285
20
140
11
47.095
21
140
0
LINE
8
back_outsideCutPath
10
47.095
20
140
11
47.095
21
136.5
0
LINE
8
back_outsideCutPath
10
47.095
20
136.5
11
34.905
21
136.5
0
LINE
8
back_outsideCutPath
10
34.905
20
136.5
11
34.905
21
140
0
LINE
8
back_outsideCutPath
10
34.905
20
140
11
22.715
21
140
0
LINE
8
back_outsideCutPath
10
22.715
20
140
11
22.715
21
136.5
0
LINE
8
back_outsideCutPath
10
22.715
20
136.5
11
10.525
21
136.5
0
LINE
8
back_outsideCutPath
10
10.525
20
136.5
11
10.525
21
140
0
LINE
8
back_outsideCutPath
10
10.525
20
140
11
0
21
140
0
LINE
8
right_outsideCutPath
10
88.5
20
140
11
88.5
21
124.785
0
LINE
8
right_outsideCutPath
10
88.5
20
124.785
11
85
21
124.785
0
LINE
8
right_outsideCutPath
10
85
20
124.785
11
85
21
112.595
0
LINE
8
right_outsideCutPath
10
85
20
112.595
11
88.5
21
112.595
0
LINE
8
right_outsideCutPath
10
88.5
20
112.595
11
88.5
21
100.405
0
LINE
8
right_outsideCutPath
10
88.5
20
100.405
11
85
21
100.405
0
LINE
8
right_outsideCutPath
10
85
20
100.405
11
85
21
88.215
0
LINE
8
right_outsideCutPath
10
85
20
88.215
11
88.5
21
88.215
0
LINE
8
right_outsideCutPath
10
88.5
20
88.215
11
88.5
21
76.025
0
LINE
8
right_outsideCutPath
10
88.5
20
76.025
11
88.5
21
73
0
LINE
8
right_outsideCutPath
10
88.5
20
73
11
93.025
21
73
0
LINE
8
right_outsideCutPath
10
93.025
20
73
11
93.025
21
76.5
0
LINE
8
right_outsideCutPath
10
93.025
20
76.5
11
105.215
21
76.5
0
LINE
8
right_outsideCutPath
10
105.215
20
76.5
11
105.215
21
73
0
LINE
8
right_outsideCutPath
10
105.215
20
73
11
117.405
21
73
0
LINE
8
right_outsideCutPath
10
117.405
20
73
11
117.405
21
76.5
0
LINE
8
right_outsideCutPath
10
117.405
20
76.5
11
129.595
21
76.5
0
LINE
8
right_outsideCutPath
10
129.595
20
76.5
11
129.595
21
73
0
LINE
8
right_outsideCutPath
10
129.595
20
73
11
141.785
21
73
0
LINE
8
right_outsideCutPath
10
141.785
20
73
11
141.785
21
76.5
0
LINE
8
right_outsideCutPath
10
141.785
20
76.5
11
153.975
21
76.5
0
LINE
8
right_outsideCutPath
10
153.975
20
76.5
11
153.975
21
73
0
LINE
8
right_outsideCutPath
10
153.975
20
73
11
158.5
21
73
0
LINE
8
right_outsideCutPath
10
158.5
20
73
11
158.5
21
88.215
0
LINE
8
right_outsideCutPath
10
158.5
20
88.215
11
162
21
88.215
0
LINE
8
right_outsideCutPath
10
162
20
88.215
11
162
21
100.405
0
LINE
8
right_outsideCutPath
10
162
20
100.405
11
158.5
21
100.405
0
LINE
8
right_outsideCutPath
10
158.5
20
100.405
11
158.5
21
112.595
0
LINE
8
right_outsideCutPath
10
158.5
20
112.595
11
162
21
112.595
0
LINE
8
right_outsideCutPath
10
162
20
112.595
11
162
21
124.785
0
LINE
8
right_outsideCutPath
10
162
20
124.785
11
158.5
21
124.785
0
LINE
8
right_outsideCutPath
10
158.5
20
124.785
11
158.5
21
136.975
0
LINE
8
right_outsideCutPath
10
158.5
20
136.975
11
158.5
21
140
0
LINE
8
right_outsideCutPath
10
158.5
20
140
11
153.975
21
140
0
LINE
8
right_outsideCutPath
10
153.975
20
140
11
153.975
21
136.5
0
LINE
8
right_outsideCutPath
10
153.975
20
136.5
11
141.785
21
136.5
0
LINE
8
right_outsideCutPath
10
141.785
20
136.5
11
141.785
21
140
0
LINE
8
right_outsideCutPath
10
141.785
20
140
11
129.595
21
140
0
LINE
8
right_outsideCutPath
10
129.595
20
140
11
129.595
21
136.5
0
LINE
8
right_outsideCutPath
10
129.595
20
136.5
11
117.405
21
136.5
0
LINE
8
right_outsideCutPath
10
117.405
20
136.5
11
117.405
21
140
0
LINE
8
right_outsideCutPath
10
117.405
20
140
11
105.215
21
140
0
LINE
8
right_outsideCutPath
10
105.215
20
140
11
105.215
21
136.5
0
LINE
8
right_outsideCutPath
10
105.215
20
136.5
11
93.025
21
136.5
0
LINE
8
right_outsideCutPath
10
93.025
20
136.5
11
93.025
21
140
0
LINE
8
right_outsideCutPath
10
93.025
20
140
11
88.5
21
140
0
LINE
8
bottom_outsideCutPath
10
168.5
20
156.5
11
168.5
21
151.975
0
LINE
8
bottom_outsideCutPath
10
168.5
20
151.975
11
165
21
151.975
0
LINE
8
bottom_outsideCutPath
10
165
20
151.975
11
165
21
139.785
0
LINE
8
bottom_outsideCutPath
10
165
20
139.785
11
168.5
21
139.785
0
LINE
8
bottom_outsideCutPath
10
168.5
20
139.785
11
168.5
21
127.595
0
LINE
8
bottom_outsideCutPath
10
168.5
20
127.595
11
165
21
127.595
0
LINE
8
bottom_outsideCutPath
10
165
20
127.595
11
165
21
115.405
0
LINE
8
bottom_outsideCutPath
10
165
20
115.405
11
168.5
21
115.405
0
LINE
8
bottom_outsideCutPath
10
168.5
20
115.405
11
168.5
21
103.215
0
LINE
8
bottom_outsideCutPath
10
168.5
20
103.215
11
165
21
103.215
0
LINE
8
bottom_outsideCutPath
10
165
20
103.215
11
165
21
91.025
0
LINE
8
bottom_outsideCutPath
10
165
20
91.025
11
168.5
21
91.025
0
LINE
8
bottom_outsideCutPath
10
168.5
20
91.025
11
168.5
21
86.5
0
LINE
8
bottom_outsideCutPath
10
168.5
20
86.5
11
175.525
21
86.5
0
LINE
8
bottom_outsideCutPath
10
175.525
20
86.5
11
175.525
21
83
0
LINE
8
bottom_outsideCutPath
10
175.525
20
83
11
187.715
21
83
0
LINE
8
bottom_outsideCutPath
10
187.715
20
83
11
187.715
21
86.5
0
LINE
8
bottom_outsideCutPath
10
187.715
20
86.5
11
199.905
21
86.5
0
LINE
8
bottom_outsideCutPath
10
199.905
20
86.5
11
199.905
21
83
0
LINE
8
bottom_outsideCutPath
10
199.905
20
83
11
212.095
21
83
0
LINE
8
bottom_outsideCutPath
10
212.095
20
83
11
212.095
21
86.5
0
LINE
8
bottom_outsideCutPath
10
212.095
20
86.5
11
224.285
21
86.5
0
LINE
8
bottom_outsideCutPath
10
224.285
20
86.5
11
224.285
21
83
0
LINE
8
bottom_outsideCutPath
10
224.285
20
83
11
236.475
21
83
0
LINE
8
bottom_outsideCutPath
10
236.475
20
83
11
236.475
21
86.5
0
LINE
8
bottom_outsideCutPath
10
236.475
20
86.5
11
243.5
21
86.5
0
LINE
8
bottom_outsideCutPath
10
243.5
20
86.5
11
243.5
21
91.025
0
LINE
8
bottom_outsideCutPath
10
243.5
20
91.025
11
247
21
91.025
0
LINE
8
bottom_outsideCutPath
10
247
20
91.025
11
247
21
103.215
0
LINE
8
bottom_outsideCutPath
10
247
20
103.215
11
243.5
21
103.215
0
LINE
8
bottom_outsideCutPath
10
243.5
20
103.215
11
243.5
21
115.405
0
LINE
8
bottom_outsideCutPath
10
243.5
20
115.405
11
247
21
115.405
0
LINE
8
bottom_outsideCutPath
10
247
20
115.405
11
247
21
127.595
0
LINE
8
bottom_outsideCutPath
10
247
20
127.595
11
243.5
21
127.595
0
LINE
8
bottom_outsideCutPath
10
243.5
20
127.595
11
243.5
21
139.785
0
LINE
8
bottom_outsideCutPath
10
243.5
20
139.785
11
247
21
139.785
0
LINE
8
bottom_outsideCutPath
10
247
20
139.785
11
247
21
151.975
0
LINE
8
bottom_outsideCutPath
10
247
20
151.975
11
243.5
21
151.975
0
LINE
8
bottom_outsideCutPath
10
243.5
20
151.975
11
243.5
21
156.5
0
LINE
8
bottom_outsideCutPath
10
243.5
20
156.5
11
236.475
21
156.5
0
LINE
8
bottom_outsideCutPath
10
236.475
20
156.5
11
236.475
21
160
0
LINE
8
bottom_outsideCutPath
10
236.475
20
160
11
224.285
21
160
0
LINE
8
bottom_outsideCutPath
10
224.285
20
160
11
224.285
21
156.5
0
LINE
8
bottom_outsideCutPath
10
224.285
20
156.5
11
212.095
21
156.5
0
LINE
8
bottom_outsideCutPath
10
212.095
20
156.5
11
212.095
21
160
0
LINE
8
bottom_outsideCutPath
10
212.095
20
160
11
199.905
21
160
0
LINE
8
bottom_outsideCutPath
10
199.905
20
160
11
199.905
21
156.5
0
LINE
8
bottom_outsideCutPath
10
199.905
20
156.5
11
187.715
21
156.5
0
LINE
8
bottom_outsideCutPath
10
187.715
20
156.5
11
187.715
21
160
0
LINE
8
bottom_outsideCutPath
10
187.715
20
160
11
175.525
21
160
0
LINE
8
bottom_outsideCutPath
10
175.525
20
160
11
175.525
21
156.5
0
LINE
8
bottom_outsideCutPath
10
175.525
20
156.5
11
168.5
21
156.5
0
ENDSEC
0
EOF