0
SECTION
2
HEADER
9
$INSUNITS
70
4
0
ENDSEC
0
SECTION
2
TABLES
0
TABLE
2
LTYPE
0
LTYPE
72
65
70
64
2
CONTINUOUS
3
______
73
0
40
0
0
ENDTAB
0
TABLE
2
LAYER
0
ENDTAB
0
ENDSEC
0
SECTION
2
ENTITIES
0
LINE
8
front_outsideCutPath
10
0
20
58
11
0
21
48.785
0
LINE
8
front_outsideCutPath
10
0
20
48.785
11
3.5
21
48.785
0
LINE
8
front_outsideCutPath
10
3.5
20
48.785
11
3.5
21
36.595
0
LINE
8
front_outsideCutPath
10
3.5
20
36.595
11
0
21
36.595
0
LINE
8
front_outsideCutPath
10
0
20
36.595
11
0
21
24.405
0
LINE
8
front_outsideCutPath
10
0
20
24.405
11
3.5
21
24.405
0
LINE
8
front_outsideCutPath
10
3.5
20
24.405
11
3.5
21
12.215
0
LINE
8
front_outsideCutPath
10
3.5
20
12.215
11
0
21
12.215
0
LINE
8
front_outsideCutPath
10
0
20
12.215
11
0
21
3
0
LINE
8
front_outsideCutPath
10
0
20
3
11
16.715
21
3
0
LINE
8
front_outsideCutPath
10
16.715
20
3
11
16.715
21
6.5
0
LINE
8
front_outsideCutPath
10
16.715
20
6.5
11
28.905
21
6.5
0
LINE
8
front_outsideCutPath
10
28.905
20
6.5
11
28.905
21
3
0
LINE
8
front_outsideCutPath
10
28.905
20
3
11
41.095
21
3
0
LINE
8
front_outsideCutPath
10
41.095
20
3
11
41.095
21
6.5
0
LINE
8
front_outsideCutPath
10
41.095
20
6.5
11
53.285
21
6.5
0
LINE
8
front_outsideCutPath
10
53.285
20
6.5
11
53.285
21
3
0
LINE
8
front_outsideCutPath
10
53.285
20
3
11
65.475
21
3
0
LINE
8
front_outsideCutPath
10
65.475
20
3
11
70
21
3
0
LINE
8
front_outsideCutPath
10
70
20
3
11
70
21
12.215
0
LINE
8
front_outsideCutPath
10
70
20
12.215
11
66.5
21
12.215
0
LINE
8
front_outsideCutPath
10
66.5
20
12.215
11
66.5
21
24.405
0
LINE
8
front_outsideCutPath
10
66.5
20
24.405
11
70
21
24.405
0
LINE
8
front_outsideCutPath
10
70
20
24.405
11
70
21
36.595
0
LINE
8
front_outsideCutPath
10
70
20
36.595
11
66.5
21
36.595
0
LINE
8
front_outsideCutPath
10
66.5
20
36.595
11
66.5
21
48.785
0
LINE
8
front_outsideCutPath
10
66.5
20
48.785
11
70
21
48.785
0
LINE
8
front_outsideCutPath
10
70
20
48.785
11
70
21
58
0
LINE
8
front_outsideCutPath
10
70
20
58
11
53.285
21
58
0
LINE
8
front_outsideCutPath
10
53.285
20
58
11
53.285
21
54.5
0
LINE
8
front_outsideCutPath
10
53.285
20
54.5
11
41.095
21
54.5
0
LINE
8
front_outsideCutPath
10
41.095
20
54.5
11
41.095
21
58
0
LINE
8
front_outsideCutPath
10
41.095
20
58
11
28.905
21
58
0
LINE
8
front_outsideCutPath
10
28.905
20
58
11
28.905
21
54.5
0
LINE
8
front_outsideCutPath
10
28.905
20
54.5
11
16.715
21
54.5
0
LINE
8
front_outsideCutPath
10
16.715
20
54.5
11
16.715
21
58
0
LINE
8
front_outsideCutPath
10
16.715
20
58
11
4.525
21
58
0
LINE
8
front_outsideCutPath
10
4.525
20
58
11
0
21
58
0
LINE
8
left_outsideCutPath
10
76.5
20
58
11
76.5
21
48.785
0
LINE
8
left_outsideCutPath
10
76.5
20
48.785
11
73
21
48.785
0
LINE
8
left_outsideCutPath
10
73
20
48.785
11
73
21
36.595
0
LINE
8
left_outsideCutPath
10
73
20
36.595
11
76.5
21
36.595
0
LINE
8
left_outsideCutPath
10
76.5
20
36.595
11
76.5
21
24.405
0
LINE
8
left_outsideCutPath
10
76.5
20
24.405
11
73
21
24.405
0
LINE
8
left_outsideCutPath
10
73
20
24.405
11
73
21
12.215
0
LINE
8
left_outsideCutPath
10
73
20
12.215
11
76.5
21
12.215
0
LINE
8
left_outsideCutPath
10
76.5
20
12.215
11
76.5
21
3
0
LINE
8
left_outsideCutPath
10
76.5
20
3
11
82.905
21
3
0
LINE
8
left_outsideCutPath
10
82.905
20
3
11
82.905
21
6.5
0
LINE
8
left_outsideCutPath
10
82.905
20
6.5
11
95.095
21
6.5
0
LINE
8
left_outsideCutPath
10
95.095
20
6.5
11
95.095
21
3
0
LINE
8
left_outsideCutPath
10
95.095
20
3
11
101.5
21
3
0
LINE
8
left_outsideCutPath
10
101.5
20
3
11
101.5
21
12.215
0
LINE
8
left_outsideCutPath
10
101.5
20
12.215
11
105
21
12.215
0
LINE
8
left_outsideCutPath
10
105
20
12.215
11
105
21
24.405
0
LINE
8
left_outsideCutPath
10
105
20
24.405
11
101.5
21
24.405
0
LINE
8
left_outsideCutPath
10
101.5
20
24.405
11
101.5
21
36.595
0
LINE
8
left_outsideCutPath
10
101.5
20
36.595
11
105
21
36.595
0
LINE
8
left_outsideCutPath
10
105
20
36.595
11
105
21
48.785
0
LINE
8
left_outsideCutPath
10
105
20
48.785
11
101.5
21
48.785
0
LINE
8
left_outsideCutPath
10
101.5
20
48.785
11
101.5
21
58
0
LINE
8
left_outsideCutPath
10
101.5
20
58
11
95.095
21
58
0
LINE
8
left_outsideCutPath
10
95.095
20
58
11
95.095
21
54.5
0
LINE
8
left_outsideCutPath
10
95.095
20
54.5
11
82.905
21
54.5
0
LINE
8
left_outsideCutPath
10
82.905
20
54.5
11
82.905
21
58
0
LINE
8
left_outsideCutPath
10
82.905
20
58
11
76.5
21
58
0
LINE
8
top_outsideCutPath
10
111.5
20
31.5
11
111.5
21
25.095
0
LINE
8
top_outsideCutPath
10
111.5
20
25.095
11
108
21
25.095
0
LINE
8
top_outsideCutPath
10
108
20
25.095
11
108
21
12.905
0
LINE
8
top_outsideCutPath
10
108
20
12.905
11
111.5
21
12.905
0
LINE
8
top_outsideCutPath
10
111.5
20
12.905
11
111.5
21
6.5
0
LINE
8
top_outsideCutPath
10
111.5
20
6.5
11
124.715
21
6.5
0
LINE
8
top_outsideCutPath
10
124.715
20
6.5
11
124.715
21
3
0
LINE
8
top_outsideCutPath
10
124.715
20
3
11
136.905
21
3
0
LINE
8
top_outsideCutPath
10
136.905
20
3
11
136.905
21
6.5
0
LINE
8
top_outsideCutPath
10
136.905
20
6.5
11
149.095
21
6.5
0
LINE
8
top_outsideCutPath
10
149.095
20
6.5
11
149.095
21
3
0
LINE
8
top_outsideCutPath
10
149.095
20
3
11
161.285
21
3
0
LINE
8
top_outsideCutPath
10
161.285
20
3
11
161.285
21
6.5
0
LINE
8
top_outsideCutPath
10
161.285
20
6.5
11
173.475
21
6.5
0
LINE
8
top_outsideCutPath
10
173.475
20
6.5
11
174.5
21
6.5
0
LINE
8
top_outsideCutPath
10
174.5
20
6.5
11
174.5
21
12.905
0
LINE
8
top_outsideCutPath
10
174.5
20
12.905
11
178
21
12.905
0
LINE
8
top_outsideCutPath
10
178
20
12.905
11
178
21
25.095
0
LINE
8
top_outsideCutPath
10
178
20
25.095
11
174.5
21
25.095
0
LINE
8
top_outsideCutPath
10
174.5
20
25.095
11
174.5
21
31.5
0
LINE
8
top_outsideCutPath
10
174.5
20
31.5
11
161.285
21
31.5
0
LINE
8
top_outsideCutPath
10
161.285
20
31.5
11
161.285
21
35
0
LINE
8
top_outsideCutPath
10
161.285
20
35
11
149.095
21
35
0
LINE
8
top_outsideCutPath
10
149.095
20
35
11
149.095
21
31.5
0
LINE
8
top_outsideCutPath
10
149.095
20
31.5
11
136.905
21
31.5
0
LINE
8
top_outsideCutPath
10
136.905
20
31.5
11
136.905
21
35
0
LINE
8
top_outsideCutPath
10
136.905
20
35
11
124.715
21
35
0
LINE
8
top_outsideCutPath
10
124.715
20
35
11
124.715
21
31.5
0
LINE
8
top_outsideCutPath
10
124.715
20
31.5
11
112.525
21
31.5
0
LINE
8
top_outsideCutPath
10
112.525
20
31.5
11
111.5
21
31.5
0
LINE
8
back_outsideCutPath
10
0
20
116
11
0
21
106.785
0
LINE
8
back_outsideCutPath
10
0
20
106.785
11
3.5
21
106.785
0
LINE
8
back_outsideCutPath
10
3.5
20
106.785
11
3.5
21
94.595
0
LINE
8
back_outsideCutPath
10
3.5
20
94.595
11
0
21
94.595
0
LINE
8
back_outsideCutPath
10
0
20
94.595
11
0
21
82.405
0
LINE
8
back_outsideCutPath
10
0
20
82.405
11
3.5
21
82.405
0
LINE
8
back_outsideCutPath
10
3.5
20
82.405
11
3.5
21
70.215
0
LINE
8
back_outsideCutPath
10
3.5
20
70.215
11
0
21
70.215
0
LINE
8
back_outsideCutPath
10
0
20
70.215
11
0
21
61
0
LINE
8
back_outsideCutPath
10
0
20
61
11
16.715
21
61
0
LINE
8
back_outsideCutPath
10
16.715
20
61
11
16.715
21
64.5
0
LINE
8
back_outsideCutPath
10
16.715
20
64.5
11
28.905
21
64.5
0
LINE
8
back_outsideCutPath
10
28.905
20
64.5
11
28.905
21
61
0
LINE
8
back_outsideCutPath
10
28.905
20
61
11
41.095
21
61
0
LINE
8
back_outsideCutPath
10
41.095
20
61
11
41.095
21
64.5
0
LINE
8
back_outsideCutPath
10
41.095
20
64.5
11
53.285
21
64.5
0
LINE
8
back_outsideCutPath
10
53.285
20
64.5
11
53.285
21
61
0
LINE
8
back_outsideCutPath
10
53.285
20
61
11
65.475
21
61
0
LINE
8
back_outsideCutPath
10
65.475
20
61
11
70
21
61
0
LINE
8
back_outsideCutPath
10
70
20
61
11
70
21
70.215
0
LINE
8
back_outsideCutPath
10
70
20
70.215
11
66.5
21
70.215
0
LINE
8
back_outsideCutPath
10
66.5
20
70.215
11
66.5
21
82.405
0
LINE
8
back_outsideCutPath
10
66.5
20
82.405
11
70
21
82.405
0
LINE
8
back_outsideCutPath
10
70
20
82.405
11
70
21
94.595
0
LINE
8
back_outsideCutPath
10
70
20
94.595
11
66.5
21
94.595
0
LINE
8
back_outsideCutPath
10
66.5
20
94.595
11
66.5
21
106.785
0
LINE
8
back_outsideCutPath
10
66.5
20
106.785
11
70
21
106.785
0
LINE
8
back_outsideCutPath
10
70
20
106.785
11
70
21
116
0
LINE
8
back_outsideCutPath
10
70
20
116
11
53.285
21
116
0
LINE
8
back_outsideCutPath
10
53.285
20
116
11
53.285
21
112.5
0
LINE
8
back_outsideCutPath
10
53.285
20
112.5
11
41.095
21
112.5
0
LINE
8
back_outsideCutPath
10
41.095
20
112.5
11
41.095
21
116
0
LINE
8
back_outsideCutPath
10
41.095
20
116
11
28.905
21
116
0
LINE
8
back_outsideCutPath
10
28.905
20
116
11
28.905
21
112.5
0
LINE
8
back_outsideCutPath
10
28.905
20
112.5
11
16.715
21
112.5
0
LINE
8
back_outsideCutPath
10
16.715
20
112.5
11
16.715
21
116
0
LINE
8
back_outsideCutPath
10
16.715
20
116
11
4.525
21
116
0
LINE
8
back_outsideCutPath
10
4.525
20
116
11
0
21
116
0
LINE
8
right_outsideCutPath
10
76.5
20
116
11
76.5
21
106.785
0
LINE
8
right_outsideCutPath
10
76.5
20
106.785
11
73
21
106.785
0
LINE
8
right_outsideCutPath
10
73
20
106.785
11
73
21
94.595
0
LINE
8
right_outsideCutPath
10
73
20
94.595
11
76.5
21
94.595
0
LINE
8
right_outsideCutPath
10
76.5
20
94.595
11
76.5
21
82.405
0
LINE
8
right_outsideCutPath
10
76.5
20
82.405
11
73
21
82.405
0
LINE
8
right_outsideCutPath
10
73
20
82.405
11
73
21
70.215
0
LINE
8
right_outsideCutPath
10
73
20
70.215
11
76.5
21
70.215
0
LINE
8
right_outsideCutPath
10
76.5
20
70.215
11
76.5
21
61
0
LINE
8
right_outsideCutPath
10
76.5
20
61
11
82.905
21
61
0
LINE
8
right_outsideCutPath
10
82.905
20
61
11
82.905
21
64.5
0
LINE
8
right_outsideCutPath
10
82.905
20
64.5
11
95.095
21
64.5
0
LINE
8
right_outsideCutPath
10
95.095
20
64.5
11
95.095
21
61
0
LINE
8
right_outsideCutPath
10
95.095
20
61
11
101.5
21
61
0
LINE
8
right_outsideCutPath
10
101.5
20
61
11
101.5
21
70.215
0
LINE
8
right_outsideCutPath
10
101.5
20
70.215
11
105
21
70.215
0
LINE
8
right_outsideCutPath
10
105
20
70.215
11
105
21
82.405
0
LINE
8
right_outsideCutPath
10
105
20
82.405
11
101.5
21
82.405
0
LINE
8
right_outsideCutPath
10
101.5
20
82.405
11
101.5
21
94.595
0
LINE
8
right_outsideCutPath
10
101.5
20
94.595
11
105
21
94.595
0
LINE
8
right_outsideCutPath
10
105
20
94.595
11
105
21
106.785
0
LINE
8
right_outsideCutPath
10
105
20
106.785
11
101.5
21
106.785
0
LINE
8
right_outsideCutPath
10
101.5
20
106.785
11
101.5
21
116
0
LINE
8
right_outsideCutPath
10
101.5
20
116
11
95.095
21
116
0
LINE
8
right_outsideCutPath
10
95.095
20
116
11
95.095
21
112.5
0
LINE
8
right_outsideCutPath
10
95.095
20
112.5
11
82.905
21
112.5
0
LINE
8
right_outsideCutPath
10
82.905
20
112.5
11
82.905
21
116
0
LINE
8
right_outsideCutPath
10
82.905
20
116
11
76.5
21
116
0
LINE
8
bottom_outsideCutPath
10
111.5
20
66.5
11
111.5
21
60.095
0
LINE
8
bottom_outsideCutPath
10
111.5
20
60.095
11
108
21
60.095
0
LINE
8
bottom_outsideCutPath
10
108
20
60.095
11
108
21
47.905
0
LINE
8
bottom_outsideCutPath
10
108
20
47.905
11
111.5
21
47.905
0
LINE
8
bottom_outsideCutPath
10
111.5
20
47.905
11
111.5
21
41.5
0
LINE
8
bottom_outsideCutPath
10
111.5
20
41.5
11
124.715
21
41.5
0
LINE
8
bottom_outsideCutPath
10
124.715
20
41.5
11
124.715
21
38
0
LINE
8
bottom_outsideCutPath
10
124.715
20
38
11
136.905
21
38
0
LINE
8
bottom_outsideCutPath
10
136.905
20
38
11
136.905
21
41.5
0
LINE
8
bottom_outsideCutPath
10
136.905
20
41.5
11
149.095
21
41.5
0
LINE
8
bottom_outsideCutPath
10
149.095
20
41.5
11
149.095
21
38
0
LINE
8
bottom_outsideCutPath
10
149.095
20
38
11
161.285
21
38
0
LINE
8
bottom_outsideCutPath
10
161.285
20
38
11
161.285
21
41.5
0
LINE
8
bottom_outsideCutPath
10
161.285
20
41.5
11
173.475
21
41.5
0
LINE
8
bottom_outsideCutPath
10
173.475
20
41.5
11
174.5
21
41.5
0
LINE
8
bottom_outsideCutPath
10
174.5
20
41.5
11
174.5
21
47.905
0
LINE
8
bottom_outsideCutPath
10
174.5
20
47.905
11
178
21
47.905
0
LINE
8
bottom_outsideCutPath
10
178
20
47.905
11
178
21
60.095
0
LINE
8
bottom_outsideCutPath
10
178
20
60.095
11
174.5
21
60.095
0
LINE
8
bottom_outsideCutPath
10
174.5
20
60.095
11
174.5
21
66.5
0
LINE
8
bottom_outsideCutPath
10
174.5
20
66.5
11
161.285
21
66.5
0
LINE
8
bottom_outsideCutPath
10
161.285
20
66.5
11
161.285
21
70
0
LINE
8
bottom_outsideCutPath
10
161.285
20
70
11
149.095
21
70
0
LINE
8
bottom_outsideCutPath
10
149.095
20
70
11
149.095
21
66.5
0
LINE
8
bottom_outsideCutPath
10
149.095
20
66.5
11
136.905
21
66.5
0
LINE
8
bottom_outsideCutPath
10
136.905
20
66.5
11
136.905
21
70
0
LINE
8
bottom_outsideCutPath
10
136.905
20
70
11
124.715
21
70
0
LINE
8
bottom_outsideCutPath
10
124.715
20
70
11
124.715
21
66.5
0
LINE
8
bottom_outsideCutPath
10
124.715
20
66.5
11
112.525
21
66.5
0
LINE
8
bottom_outsideCutPath
10
112.525
20
66.5
11
111.5
21
66.5
0
ENDSEC
0
EOF